  0
SECTION
  2
HEADER
  9
$ACADVER
  1
AC1004
  9
$INSBASE
 10
0.0
 20
0.0
  9
$EXTMIN
 10
0.0
 20
0.0
  9
$EXTMAX
 10
32.767
 20
32.767
  9
$LIMMIN
 10
0.0
 20
0.0
  9
$LIMMAX
 10
32.767
 20
32.767
  9
$SNAPMODE
 70
     1
  9
$SNAPUNIT
 10
0.001
 20
0.001
  9
$SNAPBASE
 10
0.0
 20
0.0
  9
$SNAPANG
 50
0.0
  9
$SNAPSTYLE
 70
     0
  9
$SNAPISOPAIR
 70
     1
  9
$GRIDMODE
 70
     0
  9
$GRIDUNIT
 10
0.0
 20
0.0
  9
$ORTHOMODE
 70
     0
  9
$REGENMODE
 70
     1
  9
$FILLMODE
 70
     1
  9
$QTEXTMODE
 70
     0
  9
$DRAGMODE
 70
     2
  9
$LTSCALE
 40
25.0
  9
$OSMODE
 70
     0
  9
$ATTMODE
 70
     1
  9
$TEXTSIZE
 40
3.0
  9
$TRACEWID
 40
10.0
  9
$TEXTSTYLE
  7
STANDARD
  9
$CLAYER
  8
0
  9
$CELTYPE
  6
BYBLOCK
  9
$CECOLOR
 62
     0
  9
$DIMSCALE
 40
1.0
  9
$DIMASZ
 40
3.0
  9
$DIMEXO
 40
2.5
  9
$DIMDLI
 40
10.0
  9
$DIMRND
 40
0.0
  9
$DIMDLE
 40
1.25
  9
$DIMEXE
 40
2.5
  9
$DIMTP
 40
0.0
  9
$DIMTM
 40
0.0
  9
$DIMTXT
 40
3.0
  9
$DIMCEN
 40
-3.0
  9
$DIMTSZ
 40
0.0
  9
$DIMTOL
 70
     0
  9
$DIMLIM
 70
     0
  9
$DIMTIH
 70
     0
  9
$DIMTOH
 70
     0
  9
$DIMSE1
 70
     0
  9
$DIMSE2
 70
     0
  9
$DIMTAD
 70
     1
  9
$DIMZIN
 70
     1
  9
$DIMBLK
  1

  9
$DIMASO
 70
     1
  9
$DIMSHO
 70
     0
  9
$DIMPOST
  1

  9
$DIMAPOST
  1

  9
$DIMALT
 70
     0
  9
$DIMALTD
 70
     2
  9
$DIMALTF
 40
0.03937
  9
$DIMLFAC
 40
1.0
  9
$LUNITS
 70
     2
  9
$LUPREC
 70
     3
  9
$AXISMODE
 70
     0
  9
$AXISUNIT
 10
0.0
 20
0.0
  9
$SKETCHINC
 40
1.0
  9
$FILLETRAD
 40
0.0
  9
$AUNITS
 70
     0
  9
$AUPREC
 70
     4
  9
$MENU
  1
acad
  9
$ELEVATION
 40
0.0
  9
$THICKNESS
 40
0.0
  9
$VIEWDIR
 10
0.0
 20
0.0
 30
1.0
  9
$LIMCHECK
 70
     0
  9
$BLIPMODE
 70
     1
  9
$CHAMFERA
 40
0.0
  9
$CHAMFERB
 40
0.0
  9
$FASTZOOM
 70
     1
  9
$SKPOLY
 70
     1
  9
$TDCREATE
 40
2447273.4679753473
  9
$TDUPDATE
 40
2447273.4679753473
  9
$TDINDWG
 40
0.0000000000
  9
$TDUSRTIMER
 40
0.0000000000
  9
$USRTIMER
 70
     1
  9
$ANGBASE
 50
0.0
  9
$ANGDIR
 70
     0
  9
$PDMODE
 70
     0
  9
$PDSIZE
 40
0.0
  9
$PLINEWID
 40
0.0
  9
$COORDS
 70
     2
  9
$SPLFRAME
 70
     0
  9
$SPLINESEGS
 70
     8
  9
$ATTDIA
 70
     0
  9
$ATTREQ
 70
     1
  9
$USERI1
 70
     0
  9
$USERI2
 70
     1
  9
$USERI3
 70
     0
  9
$USERI4
 70
     0
  9
$USERI5
 70
     0
  9
$USERR1
 40
900.0
  9
$USERR2
 40
900.0
  9
$USERR3
 40
50.0
  9
$USERR4
 40
0.0
  9
$USERR5
 40
3600.0
  0
ENDSEC
  0
SECTION
  2
TABLES
  0
TABLE
  2
LTYPE
 70
     1
  0
LTYPE
  2
CONTINUOUS
 70
    64
  3
Solid line
 72
    65
 73
     0
 40
0.0
  0
ENDTAB
  0
TABLE
  2
LAYER
 70
     1
  0
LAYER
  2
0
 70
     0
 62
     7
  6
CONTINUOUS
  0
ENDTAB
  0
TABLE
  2
STYLE
 70
     1
  0
STYLE
  2
STANDARD
 70
     0
 40
0.0
 41
1.0
 50
0.0
 71
     0
 42
3.0
  3
simplex
  4

  0
ENDTAB
  0
TABLE
  2
VIEW
 70
     0
  0
ENDTAB
  0
ENDSEC
  0
SECTION
  2
BLOCKS
  0
BLOCK
  8
0
  2
DISC
  70
0
  10
0.0
  20
0.0
  0
POLYLINE
  8
0
  66
1
  70
1
  40
0.5
  41
0.5
  62
0
  0
VERTEX
  8
0
  10
0.0
  20
0.25
  42
1.0
  0
VERTEX
  8
0
  10
0.0
  20
-0.25
  42
1.0
  0
SEQEND
  8
0
  0
ENDBLK
  8
0
  0
BLOCK
  8
0
  2
SQUARE
  70
0
  10
0.0
  20
0.0
  0
SOLID
  8
0
  62
0
  10
-0.5
  20
-0.5
  11
 0.5
  21
-0.5
  13
 0.5
  23
 0.5
  12
-0.5
  22
 0.5
  0
ENDBLK
  8
0
  0
BLOCK
  8
0
  2
DIAMOND
  70
0
  10
0.0
  20
0.0
  0
INSERT
  8
0
  2
SQUARE
  10
0.0
  20
0.0
  50
45.0
  0
ENDBLK
  8
0
  0
BLOCK
  8
0
  2
TRIANGLE
  70
0
  10
0.0
  20
0.0
  0
SOLID
  8
0
  62
0
  10
 0.0
  20
-0.5
  11
 1.0
  21
 0.0
  13
 0.0
  23
 0.5
  12
 0.0
  22
 0.5
  0
ENDBLK
  8
0
  0
BLOCK
  8
0
  2
OCTAGON
  70
0
  10
0.0
  20
0.0
  0
SOLID
  8
0
  62
0
  10
-0.5
  20
-0.2
  11
-0.2
  21
-0.5
  13
 0.2
  23
-0.5
  12
 0.5
  22
-0.2
  0
SOLID
  8
0
  62
0
  10
-0.5
  20
 0.2
  11
 0.5
  21
 0.2
  13
 0.5
  23
-0.2
  12
-0.5
  22
-0.2
  0
SOLID
  8
0
  62
0
  10
-0.5
  20
 0.2
  11
-0.2
  21
 0.5
  13
 0.2
  23
 0.5
  12
 0.5
  22
 0.2
  0
ENDBLK
  8
0
   0  
ENDSEC
   0  
SECTION
   2  
ENTITIES
  0
POLYLINE
  8
0
   66 
1
   70 
0
 62
1
   40
0.004
   41
0.004
  0
VERTEX
  8
0
   10
1.200
   20
2.600
  0
VERTEX
  8
0
   10
0.200
   20
0.600
  0
VERTEX
  8
0
   10
4.700
   20
0.600
  0
VERTEX
  8
0
   10
3.600
   20
2.600
  0
VERTEX
  8
0
   10
1.200
   20
2.600
   0  
SEQEND
  0
POLYLINE
  8
0
   66 
1
   70 
0
 62
1
   40
0.004
   41
0.004
  0
VERTEX
  8
0
   10
0.709
   20
0.748
   42 
-1.000
  0
VERTEX
  8
0
   10
0.709
   20
1.063
   42 
-1.000
  0
VERTEX
  8
0
   10
0.709
   20
0.748
   0  
SEQEND
  0
POLYLINE
  8
0
   66 
1
   70 
0
 62
1
   40
0.004
   41
0.004
  0
VERTEX
  8
0
   10
4.173
   20
0.748
   42 
-1.000
  0
VERTEX
  8
0
   10
4.173
   20
1.063
   42 
-1.000
  0
VERTEX
  8
0
   10
4.173
   20
0.748
   0  
SEQEND
  0
POLYLINE
  8
0
   66 
1
   70 
0
 62
1
   40
0.004
   41
0.004
  0
VERTEX
  8
0
   10
3.504
   20
2.244
   42 
-1.000
  0
VERTEX
  8
0
   10
3.504
   20
2.559
   42 
-1.000
  0
VERTEX
  8
0
   10
3.504
   20
2.244
   0  
SEQEND
  0
POLYLINE
  8
0
   66 
1
   70 
0
 62
1
   40
0.004
   41
0.004
  0
VERTEX
  8
0
   10
1.299
   20
2.244
   42 
-1.000
  0
VERTEX
  8
0
   10
1.299
   20
2.559
   42 
-1.000
  0
VERTEX
  8
0
   10
1.299
   20
2.244
   0  
SEQEND
  0
INSERT
  8
0
   2  
DISC
 62
8
   10
2.400
   20
2.200
   41
0.020
   42
0.020
  0
POLYLINE
  8
0
   66 
1
   70 
0
 62
8
   40
0.020
   41
0.020
  0
VERTEX
  8
0
   10
2.400
   20
2.200
  0
VERTEX
  8
0
   10
2.600
   20
2.200
   0  
SEQEND
  0
INSERT
  8
0
   2  
DISC
 62
8
   10
2.600
   20
2.200
   41
0.020
   42
0.020
  0
INSERT
  8
0
   2  
DISC
 62
8
   10
1.900
   20
1.700
   41
0.020
   42
0.020
  0
POLYLINE
  8
0
   66 
1
   70 
0
 62
8
   40
0.020
   41
0.020
  0
VERTEX
  8
0
   10
1.900
   20
1.700
  0
VERTEX
  8
0
   10
1.950
   20
1.700
   0  
SEQEND
  0
INSERT
  8
0
   2  
DISC
 62
8
   10
1.950
   20
1.700
   41
0.020
   42
0.020
  0
INSERT
  8
0
   2  
DISC
 62
8
   10
1.950
   20
1.700
   41
0.020
   42
0.020
  0
POLYLINE
  8
0
   66 
1
   70 
0
 62
8
   40
0.020
   41
0.020
  0
VERTEX
  8
0
   10
1.950
   20
1.700
  0
VERTEX
  8
0
   10
2.100
   20
1.850
   0  
SEQEND
  0
INSERT
  8
0
   2  
DISC
 62
8
   10
2.100
   20
1.850
   41
0.020
   42
0.020
  0
INSERT
  8
0
   2  
DISC
 62
8
   10
2.100
   20
1.850
   41
0.020
   42
0.020
  0
POLYLINE
  8
0
   66 
1
   70 
0
 62
8
   40
0.020
   41
0.020
  0
VERTEX
  8
0
   10
2.100
   20
1.850
  0
VERTEX
  8
0
   10
2.100
   20
1.913
   0  
SEQEND
  0
INSERT
  8
0
   2  
DISC
 62
8
   10
2.100
   20
1.913
   41
0.020
   42
0.020
  0
INSERT
  8
0
   2  
DISC
 62
8
   10
2.100
   20
1.913
   41
0.020
   42
0.020
  0
POLYLINE
  8
0
   66 
1
   70 
0
 62
8
   40
0.020
   41
0.020
  0
VERTEX
  8
0
   10
2.100
   20
1.913
  0
VERTEX
  8
0
   10
2.287
   20
2.100
   0  
SEQEND
  0
INSERT
  8
0
   2  
DISC
 62
8
   10
2.287
   20
2.100
   41
0.020
   42
0.020
  0
INSERT
  8
0
   2  
DISC
 62
8
   10
2.287
   20
2.100
   41
0.020
   42
0.020
  0
POLYLINE
  8
0
   66 
1
   70 
0
 62
8
   40
0.020
   41
0.020
  0
VERTEX
  8
0
   10
2.287
   20
2.100
  0
VERTEX
  8
0
   10
2.400
   20
2.100
   0  
SEQEND
  0
INSERT
  8
0
   2  
DISC
 62
8
   10
2.400
   20
2.100
   41
0.020
   42
0.020
  0
INSERT
  8
0
   2  
DISC
 62
8
   10
2.400
   20
2.100
   41
0.020
   42
0.020
  0
POLYLINE
  8
0
   66 
1
   70 
0
 62
8
   40
0.020
   41
0.020
  0
VERTEX
  8
0
   10
2.400
   20
2.100
  0
VERTEX
  8
0
   10
2.615
   20
2.100
   0  
SEQEND
  0
INSERT
  8
0
   2  
DISC
 62
8
   10
2.615
   20
2.100
   41
0.020
   42
0.020
  0
INSERT
  8
0
   2  
DISC
 62
8
   10
2.615
   20
2.100
   41
0.020
   42
0.020
  0
POLYLINE
  8
0
   66 
1
   70 
0
 62
8
   40
0.020
   41
0.020
  0
VERTEX
  8
0
   10
2.615
   20
2.100
  0
VERTEX
  8
0
   10
2.800
   20
2.285
   0  
SEQEND
  0
INSERT
  8
0
   2  
DISC
 62
8
   10
2.800
   20
2.285
   41
0.020
   42
0.020
  0
INSERT
  8
0
   2  
DISC
 62
8
   10
2.800
   20
2.285
   41
0.020
   42
0.020
  0
POLYLINE
  8
0
   66 
1
   70 
0
 62
8
   40
0.020
   41
0.020
  0
VERTEX
  8
0
   10
2.800
   20
2.285
  0
VERTEX
  8
0
   10
2.800
   20
2.300
   0  
SEQEND
  0
INSERT
  8
0
   2  
DISC
 62
8
   10
2.800
   20
2.300
   41
0.020
   42
0.020
  0
INSERT
  8
0
   2  
DISC
 62
8
   10
1.900
   20
1.300
   41
0.050
   42
0.050
  0
POLYLINE
  8
0
   66 
1
   70 
0
 62
8
   40
0.050
   41
0.050
  0
VERTEX
  8
0
   10
1.900
   20
1.300
  0
VERTEX
  8
0
   10
1.900
   20
1.500
   0  
SEQEND
  0
INSERT
  8
0
   2  
DISC
 62
8
   10
1.900
   20
1.500
   41
0.050
   42
0.050
  0
INSERT
  8
0
   2  
DISC
 62
8
   10
1.900
   20
1.500
   41
0.050
   42
0.050
  0
POLYLINE
  8
0
   66 
1
   70 
0
 62
8
   40
0.050
   41
0.050
  0
VERTEX
  8
0
   10
1.900
   20
1.500
  0
VERTEX
  8
0
   10
2.000
   20
1.600
   0  
SEQEND
  0
INSERT
  8
0
   2  
DISC
 62
8
   10
2.000
   20
1.600
   41
0.050
   42
0.050
  0
INSERT
  8
0
   2  
DISC
 62
8
   10
2.400
   20
1.450
   41
0.050
   42
0.050
  0
POLYLINE
  8
0
   66 
1
   70 
0
 62
8
   40
0.050
   41
0.050
  0
VERTEX
  8
0
   10
2.400
   20
1.450
  0
VERTEX
  8
0
   10
2.150
   20
1.450
   0  
SEQEND
  0
INSERT
  8
0
   2  
DISC
 62
8
   10
2.150
   20
1.450
   41
0.050
   42
0.050
  0
INSERT
  8
0
   2  
DISC
 62
8
   10
2.150
   20
1.450
   41
0.050
   42
0.050
  0
POLYLINE
  8
0
   66 
1
   70 
0
 62
8
   40
0.050
   41
0.050
  0
VERTEX
  8
0
   10
2.150
   20
1.450
  0
VERTEX
  8
0
   10
2.000
   20
1.600
   0  
SEQEND
  0
INSERT
  8
0
   2  
DISC
 62
8
   10
2.000
   20
1.600
   41
0.050
   42
0.050
  0
INSERT
  8
0
   2  
SQUARE
 62
4
   10
1.900
   20
1.300
   41
0.060
   42
0.060
  0
INSERT
  8
0
   2  
DISC
 62
4
   10
2.000
   20
1.300
   41
0.060
   42
0.060
  0
INSERT
  8
0
   2  
SQUARE
 62
4
   10
2.000
   20
1.600
   41
0.080
   42
0.080
  0
INSERT
  8
0
   2  
DISC
 62
4
   10
2.200
   20
1.600
   41
0.100
   42
0.100
  0
INSERT
  8
0
   2  
DISC
 62
4
   10
2.000
   20
1.900
   41
0.100
   42
0.100
  0
INSERT
  8
0
   2  
DISC
 62
4
   10
2.200
   20
1.900
   41
0.100
   42
0.100
  0
INSERT
  8
0
   2  
DISC
 62
4
   10
2.600
   20
2.200
   41
0.100
   42
0.100
  0
INSERT
  8
0
   2  
DISC
 62
4
   10
2.600
   20
2.400
   41
0.100
   42
0.100
  0
INSERT
  8
0
   2  
SQUARE
 62
4
   10
2.100
   20
0.900
   41
0.080
   42
0.080
  0
INSERT
  8
0
   2  
DISC
 62
4
   10
2.300
   20
0.900
   41
0.100
   42
0.100
  0
INSERT
  8
0
   2  
SQUARE
 62
4
   10
2.200
   20
1.300
   41
0.060
   42
0.060
  0
INSERT
  8
0
   2  
DISC
 62
4
   10
2.300
   20
1.300
   41
0.060
   42
0.060
  0
INSERT
  8
0
   2  
SQUARE
 62
4
   10
2.400
   20
2.100
   41
0.060
   42
0.060
 50
90.000
  0
INSERT
  8
0
   2  
DISC
 62
4
   10
2.400
   20
2.200
   41
0.060
   42
0.060
  0
INSERT
  8
0
   2  
DISC
 62
4
   10
2.400
   20
2.300
   41
0.060
   42
0.060
  0
INSERT
  8
0
   2  
DISC
 62
4
   10
2.400
   20
2.400
   41
0.060
   42
0.060
  0
INSERT
  8
0
   2  
DISC
 62
4
   10
2.100
   20
2.400
   41
0.060
   42
0.060
  0
INSERT
  8
0
   2  
DISC
 62
4
   10
2.100
   20
2.300
   41
0.060
   42
0.060
  0
INSERT
  8
0
   2  
DISC
 62
4
   10
2.100
   20
2.200
   41
0.060
   42
0.060
  0
INSERT
  8
0
   2  
DISC
 62
4
   10
2.100
   20
2.100
   41
0.060
   42
0.060
  0
INSERT
  8
0
   2  
DISC
 62
4
   10
2.800
   20
2.100
   41
0.060
   42
0.060
  0
INSERT
  8
0
   2  
DISC
 62
4
   10
2.800
   20
2.200
   41
0.060
   42
0.060
  0
INSERT
  8
0
   2  
DISC
 62
4
   10
2.800
   20
2.300
   41
0.060
   42
0.060
  0
INSERT
  8
0
   2  
DISC
 62
4
   10
1.900
   20
1.100
   41
0.060
   42
0.060
  0
INSERT
  8
0
   2  
DISC
 62
4
   10
1.900
   20
1.000
   41
0.060
   42
0.060
  0
INSERT
  8
0
   2  
DISC
 62
4
   10
1.900
   20
0.900
   41
0.060
   42
0.060
  0
INSERT
  8
0
   2  
SQUARE
 62
4
   10
2.300
   20
1.100
   41
0.080
   42
0.080
  0
INSERT
  8
0
   2  
DISC
 62
4
   10
2.500
   20
1.100
   41
0.100
   42
0.100
  0
INSERT
  8
0
   2  
DISC
 62
2
   10
2.400
   20
1.450
   41
0.098
   42
0.098
  0
INSERT
  8
0
   2  
DISC
 62
2
   10
1.900
   20
1.700
   41
0.098
   42
0.098
   0  
ENDSEC
   0  
EOF
